Aadat Guitar Chords – Atif Aslam


Rate Me: 1 Star2 Stars3 Stars4 Stars5 Stars (Rating: 5.00)
Loading...
▼ Song Details
Difficulty:
Singer:
Band:
Album:
Lyricist:
▼ Related Guitar Tabs

▼ Show Video

Credit: manitdani
Sharing is Artistic »
Continue reading, Chords and Lyrics are given below.

Video Timeline

  • Introduction – 00:00
  • Aadat guitar chords position – 00:39
  • Aadat Intro (solo) – 02:03
  • Aadat strumming – 02:50
  • Aadat chords progression and interludes – 03:12
Tuning: Standard(E-A-D-G-B-e)
CHORDS: A, B, C#m, C#sus2
Strumming Pattern: DUUDUUD
Chords Switching:
Between C#sus2 and C#m, Strum DUU on C#sus2 and
immediately switch on to C#m to strum DUUD
Scale: Dm
Capo: None

 

Aadat Guitar Chords Progression

Intro:

▼ Show Whole Arpeggio

▼ Show First Arpeggio

e|----------------------------------------------------------------|
B|--------------4---------4---------4---------4---------4---------|
G|--------6--------6---------6---------6---------6---------6------|
D|-----6-----6--------6---------6---------6---------6---------6---|
A|--4-------------------------------------------------------------|
E|----------------------------------------------------------------|

For playing the 1st arpeggio hold the “C#sus2 with bar” on 4th fret.
It’s same as the C#m bar chord on 4th fret but with 2nd finger off from
2nd string (that is playing the 2nd string (B) open).

▼ Show Second Arpeggio

e|----------------------------------------------------------------|
B|--------------5---------5---------5---------5---------5---------|
G|--------6--------6---------6---------6---------6---------6------|
D|-----6-----6--------6---------6---------6---------6---------6---|
A|--4-------------------------------------------------------------|
E|----------------------------------------------------------------|

After playing first arpeggio twice, play the Second arpeggio in continuation
by holding the C#m bar on 4th fret (that is you have to bring your 2nd finger
back on 2nd string, while the rest of fingers remains in the same position.)
and keep repeating the combine arpeggio while singing the below stanza.

 

Aaaa aaaa….
Na (C#m)jaane kab se
Umeedein kuch (A)baki hain
Mujhe phir bhi te(C#m)ri yaad
Kyun (A)ati hai?
Najaane kab (C#m)se.

(or)

For ease you can just single-strum the chords mentioned in the
above stanza if you are not comfortable with the above arpeggios.

Next, one guitarist plays the interlude-1 and other plays
this chords ( C#sus2, C#m / C#sus2, C#m / A / A ) in sync.

▼ Show Interlude-1

e|----------------------------------------------------------------|
B|-----------5-------------------5-------------------5------------|
G|--6--4--6-----6--4----6--4--6-----6--4-------6--------6--4--6---|
D|------------------------------------------7-----7---------------|
A|----------------------------------------------------------------|
E|----------------------------------------------------------------|

Verse 1

Duur(C#m) jitna bhi tum mujh (B)se
Paas(A) teray main(B)
Ab tho(C#m) aadat si hai mujh (B)ko
aisey jee(A)ney mein(B)

Zinda(C#m)gi sey koi (B)shikwa
Bhi nah(A)in hai(B)
Ab tho zin(C#m)da hoon mein iss (B)neelay
aas(A)man mein (B)

▼ Show Interlude-2

e|-----------4--7p4-------------4--7p4----------------4--------5---|
B|-----5------------------5------------------------7---------------|
G|--6-----6------------6-----6---------------6-----------6---------|
D|----------------------------------------7-----7-----------7------|
A|-----------------------------------------------------------------|
E|-----------------------------------------------------------------|

Verse 2

Chahat(C#m) aisi hai yeh te(B)ri
Badh-ti(A) ja-ey (B)
Aahat(C#m) aisi hai yeh (B)teri
Mujh ko sat(A)a-ey (B)

Yaadain(C#m) gehri hain itt(B)ni
Dil doob(A) ja-ey (B)
Aur(C#m) aankhon mein yeh (B)ghum
num (A)bunn jaa-ein (B)

Hey hey(C#m) heyayayay(B) ooooooo(A) ooooo(B) oo..

▼ Show Interlude-3

e|--4--5--4--4--4----------------------------------------------|
B|-----------------7--5--4--4--4----4--5--4-----5--5h7--5--4---|
G|-------------------------------------------6-----------------|
D|-------------------------------------------------------------|
A|-------------------------------------------------------------|
E|-------------------------------------------------------------|
e|--4--5--4--4--4--4/7--9--7--9/11--9-------------------------------|
B|-------------------------------------12--12--12--10/12--10--9p7---|
G|------------------------------------------------------------------|
D|------------------------------------------------------------------|
A|------------------------------------------------------------------|
E|------------------------------------------------------------------|

Ab tho(C#m) aadat si hai mujh (B)ko
aisey jee(A)ney mein(B)

Hey hey heyayayay oooooo oooooo
Aaaaaaaa aaaaa oooooo ooo

Sabhi yaadain(C#m) hain
Sabhi baa(B)tein hain (A)
Bhula do (C#m) unhey
Mita (B)do unhey(A)

Aaaa aaaa aaaa
Aaaaa ooooooooo

Ab tho(C#m) aadat si hai mujh (B)ko (A)

More Songs On Similar Chords

▼ All Tabs ▲ All Tabs