Aadat Guitar Tabs – Atif Aslam


Rate Me: 1 Star2 Stars3 Stars4 Stars5 Stars (Rating: 5.00)
Loading...
▼ Song Details
Difficulty:
Singer:
Band:
Album:
Lyricist:
▼ Related Guitar Chords

Tuning: Standard(E-A-D-G-B-e)
Capo: None

Aadat Guitar Tabs Progression

e|------------------------1--------------------------------------------------|
B|-----4--3--1------------------------------------------4--3--1--------------|
G|--0-----------0------0-----4-3-1-1--3/4-4--3-------0-----------0--------0--|
D|------------------------------------------------------------------3--3-----|
A|---------------------------------------------------------------------------|
E|---------------------------------------------------------------------------|
  Na jaane kab se 	   Umeedain kuch baqi hain		Mujhe phir bhi teri yaad
e|--1----------------------------------------------|
B|-----4-3-1-1--3/4-4--3-------4--3--1--------1----|
G|--------------------------0-----------3--3-------|
D|-------------------------------------------------|
A|-------------------------------------------------|
E|-------------------------------------------------|
      kyun aati hai			 Na jaane kab se		
e|-----------------------------------------------------|
B|-----------------------------------------------------|
G|--0--1--0--0--0--------------------------------------|
D|-----------------3--1--0--3------0--1--0-----1--0----|
A|------------------------------------------3----------|
E|-----------------------------------------------------|
	Durr jitna bhi tum mujhse	    Paas tere main
e|-----------------------------------------------------|
B|---------------1----1--3-----------------------------|
G|--0-1-0-0-0-3----3--------3-------3-3-1--1h3--1-0----|
D|-----------------------------------------------------|
A|-----------------------------------------------------|
E|-----------------------------------------------------|
    Ab tau addat si hai mujhko		aise jeene main
e|-------------------------------------------------|
B|-------------------------------------------------|
G|--0--1--0--0--0----------------------------------|
D|-----------------3-1-0-3------0--1--0-----1--0---|
A|---------------------------------------3---------|
E|-------------------------------------------------|
	Zindagi se koi shikva 		bhi nahi hai
e|------------------------------------------------------|
B|--------------------1-----1--3------------------------|
G|--0--1--0--0--0--3-----3--------3-----3-3-1-1h3-1-0---|
D|------------------------------------------------------|
A|------------------------------------------------------|
E|------------------------------------------------------|
	Ab tau zinda hun main iss neele		 asmaan main
e|-----1--0------------------1--0-----3--1----------1--0----------|
B|-----------3---------------------3----------------------3-------|
G|--2-----------2---------2----------------------2-----------2----|
D|----------------------------------------------------------------|
A|----------------------------------------------------------------|
E|----------------------------------------------------------------|
   sabhi yaadein hain	  Sabhi baatein hain	 Bhula do unhey
e|-----1--0-----3--1-----------------------------------|
B|-----------3----------------------------1-----1--3---|
G|--2-------------------0--1--0--0--0--3-----3---------|
D|-----------------------------------------------------|
A|-----------------------------------------------------|
E|-----------------------------------------------------|
	Mita do unhey		 Ab tau addat si hai mujhko

▼ All Tabs ▲ All Tabs