Boulevard of Broken Dreams Chords – With Capo


Rate Me: 1 Star2 Stars3 Stars4 Stars5 Stars (Rating: 3.00)
Loading...
Difficulty:
Singer:
Band:
Album:
Composer:
Lyricist:

Tuning: Standard(E-A-D-G-B-e)
Capo: 1st Fret
CHORDS: A, B5[p], C, D, Em, G
Respective Chords Without Capo: A#, C5[p], C#, D#, Fm, G#
Strumming Pattern: D D DU

Boulevard of Broken Dreams Chords Progression

Intro

(Em) (G) (D) (A) x2

Verse 1

I (Em)walk a lonely road (G)
The only one (D)that I have(A) ever known. (Em)
Don’t know (G)where it goes
But (D)it’s home to (A)me and I walk alone(Em).
I (Em)walk this empty street(G)
On the (D)Boulevard of (A)Broken Dreams(Em).
Where the (G)city sleeps
and I’m(D) the only (A)one and I walk alone(Em).

(Em) (G) (D) (A) x2

OR

▼ Show Solo

e|---------------------------0------------------------------------|
B|-----------0--1---------------3-------------0--1----------------|
G|--------2--------------------------------0----------------2-----| [x2]
D|-----2-----------------2--------------0----------------0-----0--|
A|--0-----------------3-------------------------------------------|
E|-----------------------------------3----------------2-----------|

Chorus

(C)My (G)shadow’s the (D)only one that (Em)walks beside me.
(C)My (G)shallow (D)heart’s the only (Em)thing that’s beating.
(C)Some(G)times I (D)wish someone out (Em)there will find me.
(C)’Til (G)then I (B5[p])walk alone.

Interlude

(Em)Ah-ah, (G)Ah-ah, (D)Ah-ah, (A)Aaah-ah(Em),
Ah-ah, (G)Ah-ah, (D)Ah-ah(A)

OR

▼ Show Solo

e|---------------------------0------------------------------------|
B|-----------0--1---------------3-------------0--1----------------|
G|--------2--------------------------------0----------------2-----| [x2]
D|-----2-----------------2--------------0----------------0-----0--|
A|--0-----------------3-------------------------------------------|
E|-----------------------------------3----------------2-----------|

Verse 2

(Em)I’m walking (G)down the line
(D)That divides me (A)somewhere in my (Em)mind.
On the (G)border line
(D)Of the edge and (A)where I walk (Em)alone.

Instrumental

(Em)..(G)..(D)..(A)

Verse 3

(Em)Read bet(G)ween the lines
(D)What’s fucked up and (A)everything’s (Em)alright.
Check my (G)vital signs
To (D)know I’m still (A)alive and I walk alone(Em).
(G)..(D)

I walk (A)alone
I walk (Em)alone
(G)..(D)

I walk (A)alone
I walk a…

Chorus

(C)My (G)shadow’s the (D)only one that (Em)walks beside me.
(C)My (G)shallow (D)heart’s the only (Em)thing that’s beating.
(C)Some(G)times I (D)wish someone out (Em)there will find me.
(C)’Til (G)then I (B5[p])walk alone.

Interlude

(Em)Ah-ah, (G)Ah-ah, (D)Ah-ah, (A)Aaah-ah(Em)
Ah-ah, (G)Ah-ah(D)
I walk (A)alone
I walk a…

Solo

(C)..(G..(D)..(Em) 3x
(C)..(G)..(B5[p])

Verse 4

(Em)I walk this (G)empty street
(D)On the Boul(A)evard of Broken (Em)Dreams.
Where the (G)city sleeps
And (D)I’m the only (A)one and I walk a…

Chorus

(C)My (G)shadow’s the (D)only one that (Em)walks beside me.
(C)My (G)shallow (D)heart’s the only (Em)thing that’s beating.
(C)Some(G)times I (D)wish someone out (Em)there will find me.
(C)’Til (G)then I (B5[p])walk alone.

▼ All Tabs ▲ All Tabs