Challa Guitar Chords – Jab Tak Hai Jaan


Rate Me: 1 Star2 Stars3 Stars4 Stars5 Stars (Rating: 5.00)
Loading...
▼ Song Details
Difficulty:
Singer:
Movie:
Composer:
Lyricist:

Tuning: Standard(E-A-D-G-B-e)
CHORDS: Am, Cm, D, Dm, E7, F, Gm
You can also play C, E and G in place of Cm, E7 and Gm respectively.

Strumming Pattern:

Easy one - DD UD UDD DU
or
| D d | D U D U D U D |
|     | x   x   x     |
x= mute
d= half down
D= full down
U= full up
Capo: None

Challa Guitar Chords Progression

Intro

▼ Show Whole Intro

First on (Dm) play this strumming { (mute D) (mute U) D } * 4times,
then play the chords with original strumming.
(Am)…(D)…(G)…(E7)

After this the below riff starts.

▼ Show Part 1

e|---------------------------------------------------------------------------------|
B|---------------------------------------------------------------------------------|
G|---------------------5(C)b -----------------------------5(C)b -------------------|
D|---------------5(G)--------7(A)-7(A)-7(A)~ --5(G)-7(A)---------7(A)-7(A)-7(A)~ --|
A|--4(C#)\7(E)---------------------------------------------------------------------|
E|---------------------------------------------------------------------------------|
e|-----------------------------------------------------|
B|-----------------------------------------------------|
G|-----------------------------------------------------|
D|--5(G)-7(A)--7(A)\9(B)--5(G)--3(F)-5(G)-3(F)---------|
A|----------------------------------------------7(E)---|
E|-----------------------------------------------------|

▼ Show Part 2

e|--------------------------------------------------------------------------------|
B|--------------------------------------------------------------------------------|
G|-------------------5(C)b ------------------------------5(C)b -------------------|
D|--------5(G)-7(A)---------7(A)-7(A)-7(A)~ --5(G)-7(A)---------7(A)-7(A)-7(A)~ --|
A|--7(E)--------------------------------------------------------------------------|
E|--------------------------------------------------------------------------------|
e|-----------------------------------------------------|
B|-----------------------------------------------------|
G|-----------------------------------------------------|
D|--5(G)-7(A)--7(A)\9(B)--5(G)--3(F)-5(G)-3(F)---------|
A|----------------------------------------------7(E)---|
E|-----------------------------------------------------|

If there’s two guitarist one can play the riff and other can play the Below chords.
(Am)…(D)…(G)…(C)
(Am)…(D)…(G)…(E7)

(Dm)Challa ki labh da (F)phire..(C),
(G)Challa ki labh da (Dm)phire.
(F)Yaaron oda ghar (C)kehda,
(G)Lokan ton puchda (Dm)phire.

Challa (Am)hansda phire,
Challa (D)rounda ,
Challa (G)gali gali rulda (C)phire.
Challe (Am)tu sab da,
Challe (D)tera koi nahi,
Challa (G)gali gali rul da (E7)phire.

(Dm)Challa ki labh da (F)phire..(C),
(E7)Challa ki labh da (Dm)phire.
(F)Yaaron oda ghar (C)kehda,
(G)Lokan ton puchda (Dm)phire.

(F)Challa ki (C)labh da (E7)phire

Interlude

▼ Show Whole Interlude

▼ Show Part 1

e|---------------------------------------------------------------------------|
B|-----------------------------------5---3/5----6---3/5--5--6-----3/5--------|
G|--------------------------4--5--7------------------------------------------|
D|--------------------5--7---------------------------------------------------|
A|-----------5--7--8---------------------------------------------------------|
E|--5--7--8------------------------------------------------------------------|

▼ Show Part 2

e|---------------------------------------------------------------------------|
B|-----5\3---1--3-----------------------------3/5--------------------3-3/5---|
G|------------------2/4-----2-4-4-x-x-4-x-5--------5----2-5-x-x-5-x----------|
D|---------------------------------------------------------------------------|
A|---------------------------------------------------------------------------|
E|---------------------------------------------------------------------------|

▼ Show Part 3

e|---------------------------------------------------------------------------|
B|-------------------3/5-------------6-8-8--6--5----3/5----5/6---------------|
G|--5----------5-7--------5-7---------------7--5----2/4---------7------------|
D|--------5-7----------------------------------------------------------------|
A|---------------------------------------------------------------------------|
E|---------------------------------------------------------------------------|

▼ Show Part 4

e|--------7--8--7---8----10------10/12-8----------12-8-------12\8------12\8------12\8------12---8/10-----10--10--|
B|------8------------------------------------------------10--------10--------10--------10------------------------|
G|----7----------------------------------------------------------------------------------------------------------|
D|--9------------------------------------------------------------------------------------------------------------|
A|---------------------------------------------------------------------------------------------------------------|
E|---------------------------------------------------------------------------------------------------------------|

OR
Continue with below chords.
(F)…(C)…(E7)
(Dm)…(F)…(C)
(E7)…(Dm)…(F)
(C)… (E7)

Rang (Am)satrangi (F)de
Bulbulan (E7)di (Gm)boli
Dhoop de (Dm)pairi (F)chale
Chhavan ni (Cm)lai (E7)doli.
Rang (Am)satrangi (F)de
Bulbulan (E7)di (Gm)boli
Dhoop de (Dm)pairi (F)chale
Chhavan ni (Cm)lai (E7)doli.

Hun (Am)kaale kaale badalan ‘ch (D)chand labh da,
Goongi(G)yan hawa va diyaan waaja (C)sun da.
Yaaro (Am)aas-paas wasda ai (D)yaar mera,
(G)Dikhda ni ohdiyaan khusbuaan (E7)sunghda.

(Am)Challa ki (F)labh da (C)phire..(G)
(Am)…(F)…(C)…(G)
(Am)Challa ki (F)labh da (C)phire…..(G)
(Am)Yaaron oda(F) (C)ghar kehda..(G)
(Am)Lokan ton (F)puchda (C)phire.(G)

(Am)Challa ki (F)labh da (C)phire…..(G)

(Am)…(F)…(C)…(G)
(Am)…(F)…(C)…(G)
(Am)…(F)…(C)…(G)
(Am)…(F)…(C)…(G)

Below Chords again with intro riff.
(Am)…(D)…(G)…(C)
(Am)…(D)…(G)…(E7)

Naa visaal (Am)hoya (F)kadi
Na judai (E7)ho..(Gm).
Ishq de (Dm)qaidi (F)ki
Naa rih(Cm)aai (E7)hoi.

Lokon (Am)sufne ‘ch milne da (D)wada usda,
Saari (G)saari raat na akh (C)lagdi.
Mere (Am)saa vi thode thode (D)ghat aaunde,
Meri (G)nabz vi thodi ghat (E7)wajdi.

(Am)Challa ki (F)labh da (C)phire..(G)
(Am)…(F)…(C)…(G)
(Am)Challa ki (F)labh da (C)phire…..(G)
(Am)Yaaron oda(F) (C)ghar kehda..(G)
(Dm)Lokan ton (Dm)puchda (Am)phire..(Am).

Challa (Am)hansda phire,
Challa (D)rounda ,
Challa (G)gali gali rulda (C)phire.
Challe (Am)tu sab da,
Challe (D)tera koi nahi,
Challa (G)gali gali rul da (E7)phire.

Challa (Am)hansda phire,
Challa (D)rounda ,
Challa (G)gali gali rulda (C)phire.
Challe (Am)tu sab da,
Challe (D)tera koi nahi,
Challa (G)gali gali rul da (E7)phire.

Single Strum
(F) (C) (G) (Am)
(G)..(C).

More Songs On Similar Chords

▼ All Tabs ▲ All Tabs