Emptiness Guitar Chords – Gajendra Verma


Rate Me: 1 Star2 Stars3 Stars4 Stars5 Stars (Rating: 3.50)
Loading...
▼ Song Details

▼ Show Video

Credit: Rajshri Learn
Sharing is Artistic »
Continue reading, Chords and Lyrics are given below.

Video Timeline

  • Introduction – 00:00
  • Emptiness Guitar Chords Position – 00:14
  • Emptiness Intro (Solo) – 00:43
  • Emptiness Strumming Pattern – 02:59
  • Emptiness Chords Progression – 03:44

Song: Emptiness (Tune Mere Jaana)
Tuning: Standard(E-A-D-G-B-e)
CHORDS: A#, Am, C, Dm, F

Strumming Pattern: D D UUD DUDU
Capo: None

Emptiness Guitar Chords Progression

▼ Show Intro

e|----------8---------------8--------------8--------------8------|
B|------10-----10-------10-----10------10-----10------10-----10--|
G|--10--------------10--------------9--------------9-------------|
D|---------------------------------------------------------------|
A|---------------------------------------------------------------|
E|---------------------------------------------------------------|
e|--------6------------6------------3-----3--5--3----------|
B|-----6-----6------6-----6------5-----5-----------5-------|
G|--7------------7------------5----------------------------|
D|---------------------------------------------------------|
A|---------------------------------------------------------|
E|---------------------------------------------------------|

Oh! (F)love of mine
With a (Am)song and a whine
You’re (A#)harsh and divine
Like (C)truths and a lie

But the (F)tale ends not here
I have (Am)nothing to fear
For my (A#)love is yell of giving
and (C)hold on

And the (F)bright emptiness
In a (Am)room full of it
Is a (A#)cruel mistress
Whoa (C)oh!

I (F)feel the sunrise
That nest (Am)all hollowness
For I (Dm)have nowhere to go
and I’m (C)cold.

And I feel (F)so lone(Dm)ly yeah…
(A#)There’s a better place than this
(C)Emptiness

And I’m (F)so lone(Dm)ly yeah…
(A#)There’s a better place than this
(C)Emptiness, (F)yeaheaeah..!

Tune (F)mere jaana
Kabhi (Am)nahi jaana
(A#)Ishq mera, dard me(C)ra, haaye!

Tune (F)mere jaana
Kabhi (Am)nahi jaana
(A#)Ishq mera, dard me(c)raaa..

Aashiq (F)tera(Dm)aaa
(A#)Bhid me khoya (C)rehta hai,
(F)Jaane jahaan(Dm)aaaa
(A#)Poocho to itna keh(C)ta hai

That I feel (F)so lone(Dm)ly yeah…
(A#)There’s a better place than this
(C)Emptiness

And I’m (F)so lone(Dm)ly yeah
(A#)There’s a better place than this
(C)Emptiness, (F)yeaheaeah..!

More Songs On Similar Chords

▼ All Tabs ▲ All Tabs