Hawayein Guitar Tabs(Lead) – Jab Harry Met Sejal | Arijit


Rate Me: 1 Star2 Stars3 Stars4 Stars5 Stars (Rating: 3.33)
Loading...
▼ Song Details
Difficulty:
Singer:
Movie:
Composer:
Lyricist:

Hawayein Guitar Tabs is played in D major Scale on standard tuning. Video Lesson and Tabs with lyrics are given below.

▼ Related Guitar Chords

▼ Show Video

Credit: Acoustic Imran
Sharing is Artistic »
Continue reading, Chords and Lyrics are given below.

Video Timeline

  • Demonstration – 00:00
  • Hawayein Guitar Tabs – 00:47
Tuning: Standard(E-A-D-G-B-e)

Hawayein Guitar Tabs Progression

▼ Show Intro

e|------------------------------------|
B|--10-8-----------8------------------|
G|--------11---11-----11-9-7-7--------|
D|------------------------------9-----|
A|------------------------------------|
E|------------------------------------|
    Tujhko     main rakh loon wahaan
e|----------------------------------------|
B|----------------------------------------|
G|-------7-9-11-9-------------------------|
D|--9-9--------------11-11-12-11-9--------|
A|----------------------------------12----|
E|----------------------------------------|
    Jahaan pe kahin  Hai mera ya(D)qeen.
e|----------------------------------|
B|--10-8-----------8----------------|
G|--------11---11-----11-9-7-7------|
D|------------------------------9---|
A|----------------------------------|
E|----------------------------------|
    Main jo…   tera naa huaa

e|--------------------------------------|
B|--------------------------------------|
G|-------7-9-11-9-----------------------|
D|--9-9--------------11-11-12-11-9------|
A|----------------------------------12--|
E|--------------------------------------|
    Kisi ka nahin…   Kisi ka nahin.

▼ Show Verse 1

e|-----------------------------------------------|
B|-----------------------------------------------|
G|-----------------------------------------------|
D|--12-12-11-9------9-9-12-9-9--12-9-9-----------|
A|--------------12-------------------------------|
E|-----------------------------------------------|
    Le jaayein jaane kahaan Hawayein, hawayein…
e|-----------------------------------------------|
B|-----------------------------------------------|
G|-----------------------------------------------|
D|--12-9-12-9------------9---------9-------------|
A|-------------10-12-12-----12-12-----12-12------|
E|-----------------------------------------------|
    Le jaayein tujhe kahaan Hawayein, hawayein.
e|---------------------------------------------|
B|---------------------------------------------|
G|---------------------------------------------|
D|--12-12-11-9------9-9-12-9-9--12-9-9---------|
A|--------------12-----------------------------|
E|---------------------------------------------|
    Begaani hai yeh baaghi Hawayein, hawayein
e|--------------------------------------------|
B|--------------------------------------------|
G|--------------------------------------------|
D|--12-9-12-9------------9---------9----------|
A|-------------10-12-12-----12-12-----12-12---|
E|--------------------------------------------|
    Le jaaye mujhe kahan Hawayein, hawayein.
e|--------------------------------------------------------------------|
B|--------------------------------------------------------------------|
G|-----------------9-9-12------11-9-------------9---------------------|
D|---------11-12----------------------12-11-12------11-11-11-11-12----|
A|--12-12-------------------------------------------------------------|
E|--------------------------------------------------------------------|
    Le jaayein jaane kahaan,   na mujhko khabar     Na tujhko pataa…
e|--------------------------|
B|------10------------------|
G|----------12------12-11---|
D|--12----------12----------|
A|--------------------------|
E|--------------------------|
    oh ho ho..
e|--------------------------------------------------|
B|------10------------------------------------------|
G|----------12-11-12------12-11-9------9------------|
D|--12----------------12-----------12-----12-11-12--|
A|--------------------------------------------------|
E|--------------------------------------------------|
    o ho ho ho ho..

▼ All Tabs ▲ All Tabs