Kaabil Hoon Guitar Tabs (Lead) – Kaabil


Rate Me: 1 Star2 Stars3 Stars4 Stars5 Stars (Rating: 3.00)
Loading...
▼ Song Details
Difficulty:
Singer: ,
Movie:
Composer:
Lyricist:
▼ Related Guitar Chords

▼ Show Video

Credit: Sudhir
Sharing is Artistic »
Continue reading, Chords and Lyrics are given below.
Tuning: Standard(E-A-D-G-B-e)

Kaabil Hoon Guitar Tabs Lead

▼ Show Intro

e|------15--13-12-8---10---12--------------15--13-12-8----10---12---8--|
B|--10-------------------------10------10------------------------------|
G|---------------------------------------------------------------------|
D|---------------------------------------------------------------------|
A|---------------------------------------------------------------------|
E|---------------------------------------------------------------------|
e|------15--13-12-8---10---12--------------15---13--12-8---10---12------10h12--|
B|--10-------------------------10------10--------------------------------------|
G|-----------------------------------------------------------------------------|
D|-----------------------------------------------------------------------------|
A|-----------------------------------------------------------------------------|
E|-----------------------------------------------------------------------------|

Also See:

▼ Show Chorus

e|--12-12--10-12-----8--10--8--5------12-12--10-12-----8--10--8--5--|
B|------------------------------------------------------------------|
G|------------------------------------------------------------------|
D|------------------------------------------------------------------|
A|------------------------------------------------------------------|
E|------------------------------------------------------------------|
    Tere mere        sapne sabhi      Tere mere        sapne sabhi
e|--12-12-12--10-12----8--10--8--5---------5/7-7--8-7--------5--7--5-----|
B|--------------------------------------------------------------------8--|
G|-----------------------------------------------------------------------|
D|-----------------------------------------------------------------------|
A|-----------------------------------------------------------------------|
E|-----------------------------------------------------------------------|
    Band aankhon ke    taale mein hain     Chaabi kahaan     dhoonde bata
e|--7-7--8-7-----------5--7--5-----------|
B|------------------------------8--------|
G|---------------------------------------|
D|---------------------------------------|
A|---------------------------------------|
E|---------------------------------------|
    Woh chaand ke      pyaale mein hain
e|--7--7--7--7-----7/8----5--7------7-7----------7--7---8-10-10/12---8---5--|
B|--------------------------------------------------------------------------|
G|--------------------------------------------------------------------------|
D|--------------------------------------------------------------------------|
A|--------------------------------------------------------------------------|
E|--------------------------------------------------------------------------|
    Phir bhi sapne kar    dikhaun   Sach toh     kehna   bas   yehi
e|--5-7-------5--7--8---7--------5-----5--7--5-6--|
B|-------8--------------------------8-------------|
G|------------------------------------------------|[x2]
D|------------------------------------------------|
A|------------------------------------------------|
E|------------------------------------------------|
    Main tere kaabil hoon ya     Tere kabil nahi

▼ Show Verse 1

e|--8-8--10--12-12-----12--10/12-12------8--10--13-13----15--13--12-12--|
B|----------------------------------------------------------------------|
G|----------------------------------------------------------------------|
D|----------------------------------------------------------------------|
A|----------------------------------------------------------------------|
E|----------------------------------------------------------------------|
    Yeh shararatein    yeh mastiyaan     Apna yahi       andaaz hai
e|--8-8--10--12-12----12--10/12-12-----8--10--13-13-----15--13--12-12--|
B|---------------------------------------------------------------------|
G|---------------------------------------------------------------------|
D|---------------------------------------------------------------------|
A|---------------------------------------------------------------------|
E|---------------------------------------------------------------------|
    Samjhaaye kya     kaise kahein     Jeene ka isme    raaz hai
e|--12--10--8-7-----10--8--7-5----------8--7--5---------5/7-5--------|
B|-----------------------------------------------8-------------8--5--|
G|-------------------------------------------------------------------|
D|-------------------------------------------------------------------|
A|-------------------------------------------------------------------|
E|-------------------------------------------------------------------|
    Dhadkan kahan   ye dhadakti hai     Dil mein teri   awaaz hai
e|-----5--7-----5--7--------10-10-----7-7--13--13--12---|
B|--5--------8------------------------------------------|
G|------------------------------------------------------|
D|------------------------------------------------------|
A|------------------------------------------------------|
E|------------------------------------------------------|
    Apni sab khushiyon ka   ab toh    Ye   aagaaz   hai

▼ Show Chorus

Same Chorus Again
Tere mere sapne sabhi
Tere mere sapne sabhi
Band aankhon ke taale mein hain.
Chaabi kahan dhoondhe bata
Woh chaand ke pyaale mein hain.
Phir bhi sapne kar dikhaun sach toh
Kehna bas yehi.

Main tere Kabil hoon yaa
Tere Kaabil nahi.

▼ Verse 2

Same as verse 1
Saagar ki ret pe dil ko jab
Ye banayengi meri ungliyan.
Tere naam ko hi pukaar ke
Khannkengi meri choodiyan.

Tujhme adaa aisi hai aaj
Udti hon jaise titliyan.
Pheeki ab na hongi kabhi
Ye ranginiyaan.

▼ Show Chorus

Same Chorus Again
Tere mere sapne sabhi
Tere mere sapne sabhi
Band aankhon ke taale mein hain.
Chaabi kahan dhoondhe bata
Woh chaand ke pyaale mein hain.
Phir bhi sapne kar dikhaun sach toh
Kehna bas yehi.

Main tere Kabil hoon yaa
Tere Kaabil nahi.


▼ All Tabs ▲ All Tabs