Kabhi Jo Badal Barse Guitar Chords – Arijit Singh


Rate Me: 1 Star2 Stars3 Stars4 Stars5 Stars (Rating: 4.50)
Loading...
▼ Song Details
Difficulty: ,
Singer: ,
Movie:
Composer:
Lyricist: ,

Tuning: Standard(E-A-D-G-B-e)
CHORDS: A#, Cm, Fm, G#, Gm
Strumming Pattern:
DDD UDUDD

Chords switching:

Take the first verse for an example.
|DDD| to |UDUDD|
|Cm | to |A#   |
|G# | to |A#   |
|Cm | to |A#   |
and then full strumming pattern on (Gm).

|DDD| to |UDUDD|
|Fm | to |A#   |
then full strumming pattern on (G#).

|DDD| to |UDUDD|
|Fm | to |A#   |
then full strumming pattern on (G#).
and so on...
Capo: None

Kabhi Jo Badal Barse Guitar Chords Progression

Intro

▼ Show Whole Intro

▼ Show Part 1

e|----------------------------------------------------------------|
B|-------3-3h4p---------------------------------------------------|
G|--3/5----------5-3----------------------------------------------|
D|--------------------5--3/1--1--1\3------------------------------|
A|----------------------------------------1-----1--2--3-----------|
E|-------------------------------------3-----3--------------------|

▼ Show Part 2

e|----------------------------------------------------------------|
B|-------3-3h4p---------------------------------------------------|
G|--2/5----------5-3----------------------------------------------|
D|--------------------5--3/1--1\5/3--3~ --------------------------|
A|-------------------------------------------1-----1--2--3--------|
E|----------------------------------------3-----3-----------------|

Kabhi jo (Cm)badal (A#)barse,
Main dekhoon tujhe (G#)aankhein (A#)bharke,
Tu lage mujhe (Cm)pahli (A#)baarish ki (Gm)duaa.

(Fm)..(A#)…(G#)
(Fm)..(A#)…(G#)

Tere (Cm)pahloo mein rah (A#)loon,
Main khud ko (G#)paagal kah (A#)loon,
Tu gam de ya (Cm)khushiyaan sah (A#)loon (Gm)saathiyaa.

(Fm)..(A#)…(G#)
(Fm)..(A#)…(G#)

(Cm)..(A#)..(G#)..(A#)
(Cm)..(A#)..(G#)..(A#)

(Cm)Koi nahi..(A#)
Tere siva (G#)mera yahaan..(A#)
(Cm)Manzilein..(A#)
Hain meri to (G#)sabh yahaan..(A#).

Mita de sabhi (Cm)aaja (A#)faansle
Main chahoon mujhe (G#)mujhse baant (A#)le
Zara sa mujh (Cm)mein tu jhaank (A#)le
Main hoon (Gm)kya.

(Fm)..(A#)…(G#)
(Fm)..(A#)…(G#)

(Cm)..(A#)..(G#)..(A#)
(Cm)..(A#)..(G#)..(A#)

(Cm)Pahle kabhi..(A#)
Na tune mujhe (G#)gham diya..(A#)
(Cm)Phir mujhe..(A#)
Kyoon tanha (G#)kar diya..(A#).

Guzaare the jo (Cm)lamhe pyaar (A#)ke
Hamesha tujhe (G#)apna maan (A#)ke
To phir tune (Cm)badli kyoon (A#)adaa.
Yeh kyoon (Gm)kiya

(Fm)..(A#)…(G#)
(Fm)..(A#)…(G#)

Kabhi jo (Cm)badal (A#)barse,
Main dekhoon tujhe (G#)aankhein (A#)bharke,
Tu lage mujhe (Cm)pahli (A#)baarish ki (Gm)duaa.

Tere (Cm)pahloo mein rah (A#)loon,
Main khud ko (G#)paagal kah (A#)loon,
Tu gam de ya (Cm)khushiyaan sah (A#)loon (Gm)saathiyaa.

More Songs On Similar Chords

▼ All Tabs ▲ All Tabs