Khamoshiyan Guitar Tabs – Arijit Singh


Rate Me: 1 Star2 Stars3 Stars4 Stars5 Stars (Rating: 3.33)
Loading...
▼ Song Details
Difficulty:
Singer:
Movie:
Composer:
Lyricist:
▼ Related Guitar Chords

Tuning: Standard(E-A-D-G-B-e)
Capo: None

Khamoshiyan Guitar Tabs Progression

e|------------------------------------------------------|
B|---------------------------------------------1--------|
G|----0-2-3-2----0-2-3-2----------0-2-2-2--2-3---3-2-0--|
D|---3--------3-----------------3-----------------------|
A|------------------------------------------------------|
E|------------------------------------------------------|
	Khamoshiyan aawaaz hain		Tum sunne to aao kabhi
e|---------------------------------------------------------|
B|-----------3-2-3--------------------------------1--------|
G|---0-2-3-2-------2-0----0-2-3-2-----0-2-2-2—2-3---3-2-0--|
D|–3-------------------3------------3----------------------|
A|---------------------------------------------------------|
E|---------------------------------------------------------|
	Chhukar tumhe khill jaayengi	Ghar inko bulaao kabhi
e|----------------------------------1-0---1-0-----0--------|
B|--1---1-1h3——–1---1-1h3---------------3----3-2-3---------|
G|-3--3-------3---3----------------------------------------|
D|---------------------------------------------------------|
A|---------------------------------------------------------|
E|---------------------------------------------------------|
	Beqarar hain baat karne ko		Kehne do inko zaraa…..
e|--1-0-------------------------------------1-0------------|
B|------3-3--1---------1-------------------------3-3--1----|
G|-------------3-----3---3-2-0-----0-0h2----------------3--|
D|-----------------------------2-3-------------------------|
A|---------------------------------------------------------|
E|---------------------------------------------------------|
	Khamoshiyan…     Teri meri khamoshiyan    Khamoshiyan
e|----------------------------1-1-0-----------1-1-0------------------|
B|----1-----------------------------3-2-3------------3-2-3-1-1-------|
G|--3---3-2-0-----0-0h2--------------------2--------------------3----|
D|------------2-3----------------------------------------------------|
A|-------------------------------------------------------------------|
E|-------------------------------------------------------------------|
	Lipti hui khamoshiyan     Kya uss gali mein kabhi tera jaana hua
e|----0-0--------------0-0------------------|
B|---------3-1-0-1----------3-1-0-1---------|
G|--0----------------0--------------3-2-----|
D|------------------------------------------|
A|------------------------------------------|
E|------------------------------------------|
	Jahaan se zamaane ko guzre zamaana hua
e|--1-1-0------------1-1-0------------------|
B|---------3-2-3------------3-2-3-1-1-------|
G|----------------2--------------------3----|
D|------------------------------------------|
A|------------------------------------------|
E|------------------------------------------|
	Mera samay toh wahin pe hai thehra hua
e|---0-0-------------0-0---------------------|
B|-------3-1-0-1----------3-1-0-1------------|
G|--0--------------0--------------3-2--------|
D|-------------------------------------------|
A|-------------------------------------------|
E|-------------------------------------------|
	Bataaun tumhe kya mere sath kya kya hua
e|----------------------------------------------------|
B|-------------------------------------------1--------|
G|----0-2-3-2----0-2-3-2---------0-2-2-2—2-3---3-2-0--|
D|--3---------3----------------3----------------------|
A|----------------------------------------------------|
E|----------------------------------------------------|
	Khamoshiyan ek saaz hai    Tum dhun koi laao zaraa
e|---------------------------------------------------------|
B|-----------3-2-3--------------------------------1--------|
G|---0-2-3-2-------2-0----0-2-3-2-----0-2-2-2—2-3---3-2-0--|
D|–3-------------------3------------3----------------------|
A|---------------------------------------------------------|
E|---------------------------------------------------------|
	Khamoshiyan alfaaz hain      	Kabhi aa gunguna le zara
e|----------------------------------1-0---1-0-----0--------|
B|--1---1-1h3——–1---1-1h3---------------3----3-2-3---------|
G|-3--3-------3---3----------------------------------------|
D|---------------------------------------------------------|
A|---------------------------------------------------------|
E|---------------------------------------------------------|
	Beqarar hain baat karne ko		Kehne do inko zaraa…..
e|--1-0----------------1--------------------|
B|------3-3--1-------3---3-2-0-----0-0h2----|
G|-------------3---------------2-3----------|
D|------------------------------------------|
A|------------------------------------------|
E|------------------------------------------|
	Khamoshiyan…     Teri meri khamoshiyan
e|--1-0----------------1--------------------|
B|------3-3--1-------3---3-2-0-----0-0h2----|
G|-------------3---------------2-3----------|
D|------------------------------------------|
A|------------------------------------------|
E|------------------------------------------|
	Khamoshiyan…     Lipti hui khamoshiyan

Rest, same as above.


▼ All Tabs ▲ All Tabs