Soch Na Sake Guitar Tabs – Arijit Singh


Rate Me: 1 Star2 Stars3 Stars4 Stars5 Stars (Rating: 2.75)
Loading...
▼ Song Details
Difficulty:
Singer: ,
Movie:
Composer:
Lyricist:
▼ Related Guitar Chords

Tuning: Standard(E-A-D-G-B-e)
Capo: None

 

Soch Na Sake Guitar Tabs

▼ Show Intro

e|--4h5p4---------------------------|		e|---------------------------------|
B|--5------5--5-3-2-3-5------5------|		B|------5--2h3p2------------2------|
G|--4----------------------4---4----| [x3]  G|--4h6----------4-2-4----4---4----|
D|--2--------------------2-------2--|		D|--2-------------------2-------2--|
A|----------------------------------|		A|---------------------------------|
E|----------------------------------|		E|---------------------------------|

▼ Show Verse 1

e|--------------------------------------------------------------------------|
B|--9-9-10-10-10-10—9-10-12-10-10-------------------10----------------------|
G|------------------------------------9-11-9-11-11———————11--9-7-6-4-9-9-9--|
D|--------------------------------------------------------------------------|
A|--------------------------------------------------------------------------|
E|--------------------------------------------------------------------------|
	Tenu itna main pyaar karaan		  Ek pal vich sau baar karaan.
e|--------------------------------------------------------------------------|
B|--9-9-10-10-10-10—9-10-12-10-10-------------------10----------------------|
G|------------------------------------9-11-9-11-11———————11--9-7-6-4-9-9-9--|
D|--------------------------------------------------------------------------|
A|--------------------------------------------------------------------------|
E|--------------------------------------------------------------------------|
	Tu jaave je mainu chhad ke		  Maut da intezaar karaan.

See Also

▼ Show Chorus 1

e|------9------9-----------------------------9------9---------------------|
B|---------12———————10-10-10-10-9-10------------12------10-10-10-12-10-9--|
G|--9-9----------------------------------9-9------------------------------|
D|------------------------------------------------------------------------|
A|------------------------------------------------------------------------|
E|------------------------------------------------------------------------|
	Ke tere liye duniya chhod di hai	 Tujhpe hi saans aake ruke.
e|----------------------------------------------|
B|--10-10-10-12-10---------------10-------------|
G|------------------11-11-11-11--------11-9-7---|
D|----------------------------------------------|
A|----------------------------------------------|
E|----------------------------------------------|
	Main tujhko kitna chahta hoon.
e|---------------------------------|
B|--------9-10-9-------------------|
G|--11-11------------11-9-7-9-7-6--|
D|---------------------------------|
A|---------------------------------|
E|---------------------------------|
	Ye tu kabhi soch na sake.

Repeat the whole Chorus tab once again.

▼ Show Verse 2

e|--9-9-10-9------------------9------9-9-10-9--------------------|
B|------------12-10-9-10-12--------------------12-10-9-10-12-12--|
G|---------------------------------------------------------------|
D|---------------------------------------------------------------|
A|---------------------------------------------------------------|
E|---------------------------------------------------------------|
	Kuch bhi nahi hai ye jahaan		 Tu hai toh hai isme zindagi.
e|--9-9-10-9------------------9------9-9-10-9--------------------|
B|------------12-10-9-10-12--------------------12-10-9-10-12-12--|
G|---------------------------------------------------------------|
D|---------------------------------------------------------------|
A|---------------------------------------------------------------|
E|---------------------------------------------------------------|
	Ab mujhko jaana hai kahaan		 Ke tu hi safar hai aakhiri.

▼ Show Chorus 2

e|------9------9-----------------------------9------9---------------------|
B|---------12———————10-10-10-10-9-10------------12------10-10-10-12-10-9--|
G|--9-9----------------------------------9-9------------------------------|
D|------------------------------------------------------------------------|
A|------------------------------------------------------------------------|
E|------------------------------------------------------------------------|
	Ke tere bina jeena mumkin nahin		 Na dena kabhi mujhko tu faasley.
e|----------------------------------------------|
B|--10-10-10-12-10---------------10-------------|
G|------------------11-11-11-11--------11-9-7---|
D|----------------------------------------------|
A|----------------------------------------------|
E|----------------------------------------------|
	Main tujhko kitna chahti hoon.
e|---------------------------------|
B|--------9-10-9-------------------|
G|--11-11------------11-9-7-9-7-6--|
D|---------------------------------|
A|---------------------------------|
E|---------------------------------|
	Ye tu kabhi soch na sake.
e|------9------9-----------------------------9------9---------------------|
B|---------12———————10-10-10-10-9-10------------12------10-10-10-12-10-9--|
G|--9-9----------------------------------9-9------------------------------|
D|------------------------------------------------------------------------|
A|------------------------------------------------------------------------|
E|------------------------------------------------------------------------|
	Ke tere liye duniya chhod di hai	 Tujhpe hi saans aake ruke.
e|----------------------------------------------|
B|--10-10-10-12-10---------------10-------------|
G|------------------11-11-11-11--------11-9-7---|
D|----------------------------------------------|
A|----------------------------------------------|
E|----------------------------------------------|
	Main tujhko kitna chahta hoon.
e|---------------------------------|
B|--------9-10-9-------------------|
G|--11-11------------11-9-7-9-7-6--|
D|---------------------------------|
A|---------------------------------|
E|---------------------------------|
	Ye tu kabhi soch na sake.

▼ Show Verse 3

Same as Verse 2
Aankhon ki hai yeh khwahishein
Ki chehre se teri na hatein.
Neendon mein meri bas tere
Khwabon ne li hai karwatein.

▼ Show Chorus 3

Same as Chorus 2
Ki teri ore mujhko leke chalein
Ye duniya bhar ke sab raaste.
Main tujhko kitna chahta hoon
Ye tu kabhi soch na sake.

Tere liye duniya chhod di hai
Tujhpe hi saans aake ruke.
Main tujhko kitna chahta hoon
Ye tu kabhi soch na sake.


▼ All Tabs ▲ All Tabs