Sun Raha Hai Na Tu Guitar Tabs


Rate Me: 1 Star2 Stars3 Stars4 Stars5 Stars (Rating: 4.33)
Loading...
▼ Song Details
Difficulty:
Singer:
Movie:
Composer:
Lyricist:
▼ Related Guitar Chords

Tuning: Standard(E-A-D-G-B-e)
Scale: C major
Capo: None

Sun Raha Hai Na Tu Guitar Tabs Progression

▼ Show Intro

e|--------------------------------------------------------------|
B|--4-3-------4-3-------4\6~ ----4-3-------4-3-------4\6~ ------|
G|-------3-5-------3-5--------------------------3-5-------------|
D|--------------------------------------------------------------|
A|--------------------------------------------------------------|
E|--------------------------------------------------------------|
	Apne karam ki kar adayein	 Kar de idhar bhi tu nigaahein.

▼ Show Pre-chorus

e|---------------------------------------------|
B|--4-3h4---------------4-3h4------------------|
G|--------5~ -5-5~ -----------5~ -5-5----------|
D|---------------------------------------------|
A|---------------------------------------------|
E|---------------------------------------------|
	Mujhko iraade de	Kasamein de, waade de
e|-----------------------------------------|
B|--3--------3-3\6-6/3-3-----------6-------|
G|----3--5-5---------------5-5p3-3---------|
D|-----------------------------------------|
A|-----------------------------------------|
E|-----------------------------------------|
	Meri duaaon ke ishaaron ko sahaare de.
e|---------------------------------------------|
B|--4-3h4-----------------4-3h4----------------|
G|--------5~ -5-5~ -------------5~ -5-5--------|
D|---------------------------------------------|
A|---------------------------------------------|
E|---------------------------------------------|
	Dil ko thikaane de	  Naye bahaane de
e|--------------------------------------------|
B|--3--------3-3-6-6p3-3--------------6-------|
G|----3--5-5---------------5-5-3--3h5---------|
D|--------------------------------------------|
A|--------------------------------------------|
E|--------------------------------------------|
	Khaabon ki baarishon ko Mausam ke paimane de.

▼ Show Chorus

e|--------------------------------------------------------------|
B|--4-3-------4-3-------4\6------4-3-------4-3-------4\6--6-6\8-|
G|-------3-5-------3-5--------------------------3-5-------------|
D|--------------------------------------------------------------|
A|--------------------------------------------------------------|
E|--------------------------------------------------------------|
	Apne karam ki kar adayein	 Kar de idhar bhi tu nigaahein.
e|----------------------------------------------|
B|-------3-4-3h4--------------3-----------3~ ---|
G|--3\5-----------5~ ------5-----5-3-5-5--------|
D|----------------------------------------------|
A|----------------------------------------------|
E|----------------------------------------------|
	Sun raha hai naa tu	   Ro raha hun main
e|------------------------------------------------|
B|------3-4-3--3h4---------------3\5-5-5/1--------|
G|--5-5------------5-3-----6~ -6------------------|
D|------------------------------------------------|
A|------------------------------------------------|
E|------------------------------------------------|
	Sun raha hai naa tu	   Kyun ro raha hun main.

Play Whole “sun raha hai na tu” part once more.

▼ Show Verse 1

e|------------------------------------------------------|
B|---------------3-4p3---4~ ---4-4p3-3------------------|
G|--------3\5~ 5-------5---------------5-5p3------------|
D|--5-6-6------------------------------------6-3-6-5~ --|
A|------------------------------------------------------|
E|------------------------------------------------------|
	Manzilein ruswa hain		Khoya hai raasta
e|----------------------------------------------------|
B|---------------3-4\6-6b/4----4-4-3-3----------------|
G|--------3\5--5-----------------------5-5p3----------|
D|--5-6-6------------------------------------6-3-6-5--|
A|----------------------------------------------------|
E|----------------------------------------------------|
	Aaye le jaaye			   Itni si iltejaa
e|--3~ --------3-----------------3---------3-4-3h4-----------------3---3--|
B|-----6~ -6-6---6-4-3---3-4~ -6---6~ -6-6---------6p4---3-4~ ---5--------|
G|---------------------5-------------------------------5-------------6----|
D|------------------------------------------------------------------------|
A|------------------------------------------------------------------------|
E|------------------------------------------------------------------------|
	Ye meri zamanat hai    		Tu meri amaanat hai..		  	 haaaan…

▼ Show Chorus

e|--------------------------------------------------------------|
B|--4-3-------4-3-------4\6------4-3-------4-3-------4\6--6-6\8-|
G|-------3-5-------3-5--------------------------3-5-------------|
D|--------------------------------------------------------------|
A|--------------------------------------------------------------|
E|--------------------------------------------------------------|
	Apne karam ki kar adayein	 Kar de idhar bhi tu nigaahein.
e|----------------------------------------------|
B|-------3-4-3h4--------------3-----------3~ ---|
G|--3\5-----------5~ ------5-----5-3-5-5--------|
D|----------------------------------------------|
A|----------------------------------------------|
E|----------------------------------------------|
	Sun raha hai naa tu	   Ro raha hun main
e|------------------------------------------------|
B|------3-4-3--3h4---------------3\5-5-5/1--------|
G|--5-5------------5-3-----6~ -6------------------|
D|------------------------------------------------|
A|------------------------------------------------|
E|------------------------------------------------|
	Sun raha hai naa tu	   Kyun ro raha hun main.

Play Whole “sun raha hai na tu” part once more.

▼ Show Verse 2

e|------------------------------------------------------|
B|---------------3-4p3---4~ ---4-4p3-3------------------|
G|--------3\5~ 5-------5---------------5-5p3------------|
D|--5-6-6------------------------------------6-3-6-5~ --|
A|------------------------------------------------------|
E|------------------------------------------------------|
	Waqt bhi thehara hai		Kaise kyun ye huaa.
e|----------------------------------------------------|
B|---------------3-4\6-6b/4----4-4-3-3----------------|
G|--------3\5--5-----------------------5-5p3----------|
D|--5-6-6------------------------------------6-3-6-5--|
A|----------------------------------------------------|
E|----------------------------------------------------|
	Kaash tu aise aaye		   Jaise koi duaa.
e|--3~ --------3-----------------3---------3-4-3h4-------------------------|
B|-----6~ -6-6---6-4-3---3-4~ -6---6~ -6-6---------6p4---3-4~ ---4\8-6-8~ -|
G|---------------------5-------------------------------5-------------------|
D|-------------------------------------------------------------------------|
A|-------------------------------------------------------------------------|
E|-------------------------------------------------------------------------|
	Tu rooh ki raahat hai    	Tu meri ibaadat hai		 		 haaaan…

▼ Show Chorus

e|--------------------------------------------------------------|
B|--4-3-------4-3-------4\6------4-3-------4-3-------4\6--6-6\8-|
G|-------3-5-------3-5--------------------------3-5-------------|
D|--------------------------------------------------------------|
A|--------------------------------------------------------------|
E|--------------------------------------------------------------|
	Apne karam ki kar adayein	 Kar de idhar bhi tu nigaahein.
e|----------------------------------------------|
B|-------3-4-3h4--------------3-----------3~ ---|
G|--3\5-----------5~ ------5-----5-3-5-5--------|
D|----------------------------------------------|
A|----------------------------------------------|
E|----------------------------------------------|
	Sun raha hai naa tu	   Ro raha hun main
e|------------------------------------------------|
B|------3-4-3--3h4---------------3\5-5-5/1--------|
G|--5-5------------5-3-----6~ -6------------------|
D|------------------------------------------------|
A|------------------------------------------------|
E|------------------------------------------------|
	Sun raha hai naa tu	   Kyun ro raha hun main.

Play Whole “sun raha hai na tu” part once more.


▼ All Tabs ▲ All Tabs