Galliyan Chords Unplugged – Shraddha Kapoor


Rate Me: 1 Star2 Stars3 Stars4 Stars5 Stars (Rating: 4.00)
Loading...
▼ Song Details
Difficulty:
Singer: ,
Movie:
Composer:
Lyricist:
▼ Other Versions

▼ Show Video

Credit: Anubhav MUSICZ
Sharing is Artistic »
Continue reading, Chords and Lyrics are given below.
Tuning: Standard(E-A-D-G-B-e)
CHORDS: B, Bm, C#, C#m, D#m
Strumming Pattern: DD UUD D
Scale: D#m
Capo: None

To make it more easy you can place a capo on the 1st fret, so the
above chords will become Dm Cm A#m C A# open chords respectively.

Galliyan chords (Unplugged) with lyrics

INTRO

▼ Show Whole Arpeggio

▼ Show Tab 1

Hold (D#m) chord with your 2nd finger off,
Pluck strings in sequence 5-4-3-2-4.

e|-------------------------------------|
B|-----------------------6(F)----------|
G|----------------8(D#)----------------|
D|---------8(A#)----------------8(A#)--|
A|--6(D#)------------------------------|
E|-------------------------------------|

▼ Show Tab 2

Hold (Bm) chord with your 2nd finger off,
Pluck strings in sequence 5-4-3-4.

e|------------------------------|
B|------------------------------|
G|----------------4(B)----------|
D|---------4(F#)---------4(F#)--|
A|--2(A)------------------------|
E|------------------------------|

▼ Show Tab 3

Hold (C#m) chord with your 2nd finger off,
Pluck strings in sequence 5-4-2-3-4.

e|-------------------------------------|
B|----------------4(D#)----------------|
G|-----------------------6(C#)---------|
D|---------6(G#)----------------6(G#)--|
A|--4(C#)------------------------------|
E|-------------------------------------|

Prechorus

{

▼ Show Whole Arpeggio

▼ Show Tab 1

Hold (D#m) chord this time without removing your 2nd finger,
Pluck strings in sequence 5-4-2-3-4-2-3-4.

e|----------------------------------------------------------|
B|----------------7(F#)----------------7(F#)----------------|
G|-----------------------8(D#)----------------8(D#)---------|
D|---------8(A#)----------------8(A#)----------------8(A#)--|
A|--6(D#)---------------------------------------------------|
E|----------------------------------------------------------|

▼ Show Tab 2

Hold (C#m) chord with your 2nd finger off,
Pluck strings in sequence 5-4-2-3-4-2-3-4.

e|----------------------------------------------------------|
B|----------------4(D#)----------------4(D#)----------------|
G|-----------------------6(C#)----------------6(C#)---------|
D|---------6(G#)----------------6(G#)----------------6(G#)--|
A|--4(C#)---------------------------------------------------|
E|----------------------------------------------------------|

} x { 8 times Along with below lyrics}.

Yahin doobe din mere,
Yahin hote hain sawere,
Yahin marna aur jeena,
Yahin Mandir aur Madeena.

Chorus

Teri (D#m)galliyan
Galliyan teri, (C#)galliyan.
Mujhko (C#)bhaavein
Galliyan, teri (D#m)galliyan.
Teri (D#m)galliyan
Galliyan teri, (C#)galliyan.
Yuhin (C#)tadpavein
Galliyan, teri (D#m)galliyan.

(D#m) (C#) (B) (C#) [x2]

Verse 1

{

▼ Show Whole Arpeggio

▼ Show Tab 1

Hold (D#m) chord this time without removing your 2nd finger,
Pluck strings in sequence 5-4-2-3-4-2-3-4.

e|----------------------------------------------------------|
B|----------------7(F#)----------------7(F#)----------------|
G|-----------------------8(D#)----------------8(D#)---------|
D|---------8(A#)----------------8(A#)----------------8(A#)--|
A|--6(D#)---------------------------------------------------|
E|----------------------------------------------------------|

▼ Show Tab 2

Hold (C#) chord,
Pluck strings in sequence 5-4-2-3-4-2-3-4.

e|----------------------------------------------------------|
B|----------------6(E#)----------------6(E#)----------------|
G|-----------------------6(C#)----------------6(C#)---------|
D|---------6(G#)----------------6(G#)----------------6(G#)--|
A|--4(C#)---------------------------------------------------|
E|----------------------------------------------------------|

▼ Show Tab 3

Hold (B) chord,
Pluck strings in sequence 5-4-3-4-2-5-3-2.

e|----------------------------------------------------------|
B|------------------------------4(D#)---------------4(D#)---|
G|----------------4(B)------------------------4(B)----------|
D|---------4(F#)---------4(F#)------------------------------|
A|--2(B)--------------------------------2(B)----------------|
E|----------------------------------------------------------|

▼ Show Tab 4

Hold (C#) chord,
Pluck strings in sequence 5-4-3-2.

e|--------------------------------|
B|-----------------------6(E#)----|
G|----------------6(C#)-----------|
D|---------6(G#)------------------|
A|--4(C#)-------------------------|
E|--------------------------------|

} x { 1 time Along with the below lyrics}.

Tu meri neendo me sota hai,
Tu mere ashqo mein rota hai,
Sargoshi si hai khayalon mein,
Tu na ho, phir bhi tu hota hai.

Again orignal strumming starts.
Hai(D#m) sila (C#)
Tu mere(B) (C#)
Dard (D#m)ka (C#)
Mere (B)dil ki duaayein (C#)hain. {single strum last 2 chords}.

Chorus

Teri (D#m)galliyan
Galliyan teri, (C#)galliyan.
Mujhko (C#)bhaavein
Galliyan, teri (D#m)galliyan.
Teri (D#m)galliyan
Galliyan teri, (C#)galliyan.
Yuhin (C#)tadpavein
Galliyan, teri (D#m)galliyan.

Verse 2

{Again arpeggio of verse 1 with below lyrics}
Kaisa hai rishta tera-mera,
Be-chehra phir bhi kitna gehra,
Ye lamhe, lamhe ye resham se,
Kho jaayein kho na jaayein humse.

Again orignal strumming starts.
(D#m)Kaafila (C#)
Waqt (B)ka (C#)
Rok (D#m)le (C#)
Ab (B)dil se juda na (C#)ho. {single strum last 2 chords}.

Chorus

Teri (D#m)galliyan
Galliyan teri, (C#)galliyan.
Mujhko (C#)bhaavein
Galliyan, teri (D#m)galliyan.
Teri (D#m)galliyan
Galliyan teri, (C#)galliyan.
Yuhin (C#)tadpavein
Galliyan, teri (D#m)galliyan.

More Songs On Similar Chords

▼ All Tabs ▲ All Tabs