Teri Meri Kahani Guitar Chords – Without Capo


Rate Me: 1 Star2 Stars3 Stars4 Stars5 Stars (Rating: 3.00)
Loading...
▼ Song Details
Difficulty:
Singer: ,
Movie:
Composer:
Lyricist:
▼ Other Versions

Tuning: Standard(E-A-D-G-B-e)
CHORDS: A#m, B, C#, D#m, F#, G#m
Strumming Pattern:

|DUDU|DUDU|DUDU|
|  xx|  xx|  xx|
x= mute

Strumming Pattern is played twice on each chord and
where it’s played once, it is mentioned beside the lyrics.

Capo: None
If you have a capo, check Teri Meri Kahani Chords With Capo

Teri Meri Kahani Guitar Chords Progression

Play strumming pattern twice on each chord

(D#m)…(G#m)

(G#m)Mujh mein safar
Tu karti (D#m)rahe
(G#m)Har ik saans mein
Guzarti (D#m)rahe.

Shaamo (G#m)subah tu mera
Tere (D#m)bina kya mera
Do jismo (G#m)jaan ek hai
Na (C#)hona kabhi tu juda. {single-stroke on C#}

Play strumming pattern twice on (D#m), once on (B)
and once on (C#)

Teri meri (D#m)kahaani
Hai baarishon ka (B)paani, (C#)
Banke jo ishq (D#m)barse
Teri meri (B)kahaani, (C#)
Teri meri (D#m)kahaani
Hai baarishon ka (B)paani, (C#)
Banke jo ishq (D#m)barse
Teri meri (B)kahaani…(C#)

Interlude 1

▼ Show Interlude 1

e|---------------------------------------------------------------------------|
B|---------------------6-7------------------------------9-7------------------|
G|--4--6--6s8--8--8---------6s8--8--8--4--6--6s8--8--8-------8--8--8--6--8---|
D|---------------------------------------------------------------------------|
A|---------------------------------------------------------------------------|
E|---------------------------------------------------------------------------|
e|-------------------------------------------------------------------------|
B|-------------------------------------------------------------------------|
G|--8s10--10--10---8-6--6s4---4--4---8s11--8--4s8-6s10-8s11-10s13--13s15---|
D|-------------------------------------------------------------------------|
A|-------------------------------------------------------------------------|
E|-------------------------------------------------------------------------|

Or you can play the chords instead
(D#m)…(C#)…(B)…(D#m)
(D#m)…(C#)…(B)…(G#m)

(F#)Dekho na kaisi {single-stroke}
Ijaazat (A#m)mili hai. {single-stroke}
(B)Ek doosre (C#)mein {single-stroke}
Hifaazat (D#m)mili hai. {Strumming Pattern once.}
Jeene ki (G#m)saari {Strumming Pattern twice.}
Zaroorat (C#)mili hai. {Strumming Pattern twice.}

Ye (D#m)jo bhi hai jaisa {Strumming Pattern once.}
(C#) Yunhi hamesha {Strumming Pattern once.}
(B)Hamesha rahe jis {Strumming Pattern once.}
(C#)tarah. {single-stroke}

Shaamo (G#m)subah tu mera
Tere (D#m)bina kya mera
Do jismo (G#m)jaan ek hai
Na (C#)hona kabhi tu juda. {single-stroke on C#}

Play strumming pattern twice on (D#m), once on (B)
and once on (C#)

Teri meri (D#m)kahaani
Hai baarishon ka (B)paani, (C#)
Banke jo ishq (D#m)barse
Teri meri (B)kahaani, (C#)
Teri meri (D#m)kahaani
Hai baarishon ka (B)paani, (C#)
Banke jo ishq (D#m)barse
Teri meri (B)kahaani…(C#)

(G#m)Mujh mein safar {single-stroke}
Tu karti (B)rahe {single-stroke}
(G#m)Har ik saans mein {single-stroke}
Guzarti (B)rahe…{single-stroke}
….(C#). {4 down strokes}

Interlude 2

▼ Show Interlude 2

e|----------------------14-14--13--11m-11---14-14--13--11h13p11---|
B|--7-6-----6-7-9-9s11--------------------------------------------|
G|-------8--------------------------------------------------------|
D|----------------------------------------------------------------|
A|----------------------------------------------------------------|
E|----------------------------------------------------------------|
e|---9--11-11----14-14--13--11m-11---14-14--13--14--14s18---|
B|----------------------------------------------------------|
G|----------------------------------------------------------|
D|----------------------------------------------------------|
A|----------------------------------------------------------|
E|----------------------------------------------------------|

Or you can play the chords instead
(D#m)…(B)…(D#m)…(B)
(D#m)…(B)…(D#m)…(G#m)

(F#)Hum se ye jo bhi{single-stroke}
Harqat (A#m)hui hai. {single-stroke}
(B)Mohabbat (C#)mohabbat {single-stroke}
Mohabbat (D#m)hui hai. {Strumming Pattern once.}
Kuch itne hain (G#m)hum tum {Strumming Pattern twice.}
Kami kuch (C#)nahi hai. {Strumming Pattern twice.}

(D#m)Jitna bhi jeena hai {Strumming Pattern once.}
(C#)Tujhko hi jeena hai {Strumming Pattern once.}
(B)Jeete rahein jis {Strumming Pattern once.}
(C#)tarah. {single-stroke}

Shaamo (G#m)subah tu mera
Tere (D#m)bina kya mera
Do jismo (G#m)jaan ek hai
Na (C#)hona kabhi tu juda. {single-stroke on C#}

Play strumming pattern twice on (D#m), once on (B)
and once on (C#)

Teri meri (D#m)kahaani
Hai baarishon ka (B)paani, (C#)
Banke jo ishq (D#m)barse
Teri meri (B)kahaani, (C#)
Teri meri (D#m)kahaani
Hai baarishon ka (B)paani, (C#)
Banke jo ishq (D#m)barse
Teri meri (B)kahaani…(C#)…(D#m).

More Songs On Similar Chords

▼ All Tabs ▲ All Tabs