The Humma Song Guitar Tabs (Lead) – Ok Jaanu


Rate Me: 1 Star2 Stars3 Stars4 Stars5 Stars (Rating: 4.50)
Loading...
▼ Song Details
Difficulty:
Singer: ,
Movie:
Composer:
Lyricist:
▼ Related Guitar Chords

▼ Show Video

Credit: Sagar Roy
Sharing is Artistic »
Continue reading, Chords and Lyrics are given below.

Video Timeline

  • Demonstration – 00:00
  • Introduction – 00:56
  • The Humma Song Guitar Tabs Lead Explained Step by Step – 01:36
Tuning: Standard(E-A-D-G-B-e)

The Humma Song Guitar Tabs Lead

▼ Show Intro

e|--12-13-15-13-12-8----8h9h10p9p8/6----8-8-8/12--|
B|------------------------------------------------|
G|------------------------------------------------|
D|------------------------------------------------|
A|------------------------------------------------|
E|------------------------------------------------|
e|---------13-12--13-12--13-12--13-12--13-12--13-12--13-12-13\15--13-12---------------|
B|--13\15----------------------------------------------------------------13--13-13~ --|
G|------------------------------------------------------------------------------------|
D|------------------------------------------------------------------------------------|
A|------------------------------------------------------------------------------------|
E|------------------------------------------------------------------------------------|

Also See:

▼ Show Verse

e|-------------------------------------------------------|
B|-------6-5------------------------6-5------------------|
G|--5-5-------7-5-7------------5-5-------7-5-7-----------|
D|-------------------------------------------------------|
A|-------------------------------------------------------|
E|-------------------------------------------------------|
   Ek hogaye hum aur tum       Toh udd gayi neendein re
e|----------------------------------------------------|
B|-------6-6-5----------------------------------------|
G|--5-5---------7-5-7--7-5-7--7-5-7--7\9--9-7-5-7\9---|
D|----------------------------------------------------|
A|----------------------------------------------------|
E|----------------------------------------------------|
    Aur khanki payal masti mein Toh kangan khanke re.
e|---------------------------------------------------|
B|-------6-6-5------------------------6-6-5----------|
G|--5-5---------7-5-7------------5-5---------7-5-7---|
D|---------------------------------------------------|
A|---------------------------------------------------|
E|---------------------------------------------------|
   Yeh pehli baar mile           Tumpe ye dum nikle
e|----------------------------------------------------|
B|-------6-5-5----------------------------------------|
G|--5-5---------7-5-7--7-5-7--7-5-7--7\9--9-7-5-7\9---|
D|----------------------------------------------------|
A|----------------------------------------------------|
E|----------------------------------------------------|
    Tumpe ye jawaani dheere dheere Maddham machle re.

▼ Show Chorus

e|-----------------------------------------------------------------------------------|
B|-----------------------------------------------------------------------------------|
G|--3\5-5--3\5-5--3\5--3\5--3\5--5\7--7\9-----3\5-5--3\5-5--3\5--3\5--3\5--5\7--7\9--|
D|-----------------------------------------------------------------------------------|
A|-----------------------------------------------------------------------------------|
E|-----------------------------------------------------------------------------------|
    Humma  humma…  Humma humma humma          Hey hamma hamma..   Humma humma humma

▼ All Tabs ▲ All Tabs