Tu Hi Hai Guitar Tabs Dear Zindagi (Lead) – Arijit Singh


Rate Me: 1 Star2 Stars3 Stars4 Stars5 Stars (Rating: 4.67)
Loading...
▼ Song Details
Difficulty: ,
Singer:
Movie:
Composer:
Lyricist:
▼ Related Guitar Chords

Tuning: Standard(E-A-D-G-B-e)
Scale: E major
Capo: 4th Fret
Note: The capo is on 4th fret but the fret mentioned in the tabs here are actual frets and not in with respect to capo.

 

Tu Hi Hai Guitar Tabs Lead

▼ Show Intro

Note: The capo is on 4th fret but the fret mentioned in the tabs here are actual frets and not in with respect to capo.
Intro is played by finger-style.

  1. Hold (C) open chord with your index(first) finger off and pick 5th string and then 2nd & 3rd strings together
    and then hammer on 5th fret of 2nd string with your 1st finger and don’t take this finger off after hammering on
    and then mute the whole sound by placing your palm on all strings.
  2. Then immediately pick the 5th, 2nd And 3rd string together.
  3. Then hold (F) barre chord and pick 6th string and then 2nd & 3rd strings together.
  4. Then hold (G) open chord and pick 6th string and then 2nd & 3rd strings together.
  5. Repeat the Process from 1st step to 4th step thrice.
  6. Then Repeat the process from 1st step to 3rd step once.
  7. After 3rd step loosen your fingers to mute the sound and then again press the strings and pick the 2nd & 3rd strings together again once more.
  8. Then remove all your fingers from the fret and pick the open 2nd & 3rd strings together.
e|---------x------------------------| 	  |---------x--------------------|
B|----4h5--x--5--------5--------4---|	  |----4h5--x--5--------5x5--4---|
G|----4----x--4--------6--------4---|[x3] |----4----x--4--------6x6--4---|
D|---------x------------------------|	  |---------x--------------------|
A|--7------x--7---------------------| 	  |--7------x--7-----------------|
E|---------x--------5--------7------|	  |---------x--------5-----------|
			(C)		 (F)	  (G)					 (C)	  (F)
e|-----------------------7h9p7--------------------|
B|--9/5--5--7/5----------------10-9----7-7h9p7----|
G|---------------4----4------------------------9--|
D|------------------------------------------------|
A|------------------------------------------------|
E|------------------------------------------------|

You can Skip the Intro If you want.

▼ Show Verse 1

e|---------12-12-9-----------------------12-12-9------------|
B|--12—12-----------10-12-12-9-------12-----------10-12-12--|
G|----------------------------------------------------------|
D|----------------------------------------------------------|
A|----------------------------------------------------------|
E|----------------------------------------------------------|
    O mere mohalle mein              Chaand jo aaya hai.
e|------12-12-9---------------------------------------|
B|--12-----------10-12-12-9---------------10-9--------|
G|---------------------------------11-11--------11-9--|
D|----------------------------------------------------|
A|----------------------------------------------------|
E|----------------------------------------------------|
    Eid jo laaya hai               Tu hi toh nahi.
e|------12-12-9-----------------------12-12-9------------|
B|--12-----------10-12-12-9-------12-----------10-12-12--|
G|-------------------------------------------------------|
D|-------------------------------------------------------|
A|-------------------------------------------------------|
E|-------------------------------------------------------|
    Ammi ne meri jo               Suit silaya hai.
e|------12-12-9---------------------------------------|
B|--12-----------10-12-12-9---------------10-9--------|
G|---------------------------------11-11--------11-9--|
D|----------------------------------------------------|
A|----------------------------------------------------|
E|----------------------------------------------------|
    Khwaab dikhaya hai             Tu hi toh nahi.

Also See:

▼ Show Pre-chorus 1

e|---------------------------------------------------------------------------|
B|--9----9-9----9-9----9-9-----9----------------------9----------------------|
G|----11-----11-----11-----11------------------9-9-11-----11-9-------9--9----|
D|----------------------------------------------------------------9----------|
A|---------------------------------------------------------------------------|
E|---------------------------------------------------------------------------|
    Haan jiske liye dil bigadne lagaa hai      Woh kaun hai.      Tu Hi Hai.

Interlude

e|--x--x--x--x--x--|
B|--7\ 9 \10\12/7--|
G|--x--x--x--x--x--|
D|--x--x--x--x--x--|
A|--x--x--x--x--x--|
E|--x--x--x--x--x--|
	D UDU D  D  D

You can Skip the Interlude If you want.

e|---------------------------------------------------------------------------|
B|--9----9-9----9-9----9-9-----9----------------------9----------------------|
G|----11-----11-----11-----11------------------9-9-11-----11-9-------9--9----|
D|----------------------------------------------------------------9----------|
A|---------------------------------------------------------------------------|
E|---------------------------------------------------------------------------|
    Jiske liye dil sambhalne lagaa hai         Woh kaun hai.      Tu Hi Hai.

▼ Show Chorus 1

e|--12-11-9----------9-9------12-11-9----------9--------------12-11-9----------9-9-------------|
B|-----------12--12--------------------12--12------12--7---------------12--12------------------|
G|---------------------------------------------------------------------------------------9--9--|
D|------------------------------------------------------------------------------------9--------|
A|---------------------------------------------------------------------------------------------|
E|---------------------------------------------------------------------------------------------|
    Door ye kaun hai          Paas ye kaun hai                Khaas ye kaun hai       Tu Hi Hai.

▼ Verse 2

Same as Verse 1
Jiske liye maine
Saari haseeno ke
Dil tode jaana hai
Tu hi toh nahi.

Jiske liye mujhko
Jeete hi jaana hai
Beema karana hai
Tu hi toh nahi.

▼ Show Pre-chorus 2

Same as Pre-chorus 1
Aane se jiske aa jati hai saansein
Woh kaun hai, Tu hi hai.

Same interlude again

Jaane se jiske jaati hai jaanein
Woh kaun hai, Tu hi hai.

Same interlude again

▼ Show Chorus 2

Same as Chorus 1
Door ye kaun hai
Paas ye kaun hai
Khaas ye kaun hai
Tu hi hai

Same interlude again

Mere shairon mein ye kaun hai
Meri shayari mein kaun hai
Meri diary mein kaun hai
Tu hi hai…

Gubbaron mein ye kaun hai
Khumaron mein ye kaun hai
Guitaron mein ye kaun hai
Tu hi hai, o…


▼ All Tabs ▲ All Tabs